ISO-10303-21;
HEADER;
FILE_DESCRIPTION (( 'STEP AP203' ),
    '1' );
FILE_NAME ('BK7-LNPBSC-12.7-670.STEP',
    '2021-01-05T02:01:12',
    ( '' ),
    ( '' ),
    'SwSTEP 2.0',
    'SolidWorks 2020',
    '' );
FILE_SCHEMA (( 'CONFIG_CONTROL_DESIGN' ));
ENDSEC;

DATA;
#1 = LINE ( 'NONE', #99, #151 ) ;
#2 = ORIENTED_EDGE ( 'NONE', *, *, #291, .F. ) ;
#3 = CARTESIAN_POINT ( 'NONE',  ( 6.349999999999998757, 6.349999999999998757, -6.349999999999999645 ) ) ;
#4 = APPROVAL_ROLE ( '' ) ;
#5 = EDGE_LOOP ( 'NONE', ( #61, #119, #294, #62 ) ) ;
#6 = LINE ( 'NONE', #31, #45 ) ;
#7 = CC_DESIGN_PERSON_AND_ORGANIZATION_ASSIGNMENT ( #257, #26, ( #199 ) ) ;
#8 = AXIS2_PLACEMENT_3D ( 'NONE', #258, #59, #210 ) ;
#9 = ORIENTED_EDGE ( 'NONE', *, *, #304, .T. ) ;
#10 = VERTEX_POINT ( 'NONE', #267 ) ;
#11 = DIRECTION ( 'NONE',  ( 0.000000000000000000, 0.000000000000000000, 1.000000000000000000 ) ) ;
#12 = DIRECTION ( 'NONE',  ( 0.000000000000000000, 0.000000000000000000, 1.000000000000000000 ) ) ;
#13 = ADVANCED_FACE ( 'NONE', ( #198 ), #293, .F. ) ;
#14 = ORIENTED_EDGE ( 'NONE', *, *, #304, .F. ) ;
#15 = DIRECTION ( 'NONE',  ( 1.000000000000000000, 0.000000000000000000, 0.000000000000000000 ) ) ;
#16 = EDGE_CURVE ( 'NONE', #307, #264, #38, .T. ) ;
#17 = CC_DESIGN_PERSON_AND_ORGANIZATION_ASSIGNMENT ( #56, #29, ( #268 ) ) ;
#18 = PLANE ( 'NONE',  #172 ) ;
#19 = DESIGN_CONTEXT ( 'detailed design', #222, 'design' ) ;
#20 = LINE ( 'NONE', #225, #320 ) ;
#21 = LOCAL_TIME ( 10, 1, 12.00000000000000000, #181 ) ;
#22 = CARTESIAN_POINT ( 'NONE',  ( 6.349999999999998757, 6.349999999999998757, 6.349999999999999645 ) ) ;
#23 = EDGE_LOOP ( 'NONE', ( #312, #112, #102 ) ) ;
#24 = FACE_OUTER_BOUND ( 'NONE', #5, .T. ) ;
#25 = ORIENTED_EDGE ( 'NONE', *, *, #170, .T. ) ;
#26 = PERSON_AND_ORGANIZATION_ROLE ( 'creator' ) ;
#27 = ADVANCED_FACE ( 'NONE', ( #139 ), #218, .T. ) ;
#28 = PERSON_AND_ORGANIZATION ( #70, #91 ) ;
#29 = PERSON_AND_ORGANIZATION_ROLE ( 'design_owner' ) ;
#30 = ADVANCED_FACE ( 'NONE', ( #87 ), #314, .F. ) ;
#31 = CARTESIAN_POINT ( 'NONE',  ( 6.349999999999996980, 6.349999999999996980, 6.349999999999999645 ) ) ;
#32 = DATE_AND_TIME ( #231, #21 ) ;
#33 = PERSON_AND_ORGANIZATION_ROLE ( 'creator' ) ;
#34 = AXIS2_PLACEMENT_3D ( 'NONE', #189, #212, #280 ) ;
#35 = VERTEX_POINT ( 'NONE', #217 ) ;
#36 = VECTOR ( 'NONE', #255, 1000.000000000000000 ) ;
#37 = ORIENTED_EDGE ( 'NONE', *, *, #296, .F. ) ;
#38 = LINE ( 'NONE', #40, #89 ) ;
#39 = DIRECTION ( 'NONE',  ( 0.000000000000000000, -0.000000000000000000, 1.000000000000000000 ) ) ;
#40 = CARTESIAN_POINT ( 'NONE',  ( -6.349999999999998757, -6.349999999999997868, 6.349999999999999645 ) ) ;
#41 = CC_DESIGN_DATE_AND_TIME_ASSIGNMENT ( #211, #308, ( #128 ) ) ;
#42 = EDGE_LOOP ( 'NONE', ( #243, #278, #233 ) ) ;
#43 = AXIS2_PLACEMENT_3D ( 'NONE', #142, #169, #39 ) ;
#44 = EDGE_CURVE ( 'NONE', #77, #80, #223, .T. ) ;
#45 = VECTOR ( 'NONE', #157, 1000.000000000000000 ) ;
#46 = DIRECTION ( 'NONE',  ( -1.000000000000000000, 2.903408047666378392E-16, 0.000000000000000000 ) ) ;
#47 = LINE ( 'NONE', #94, #68 ) ;
#48 = LINE ( 'NONE', #22, #292 ) ;
#49 = VERTEX_POINT ( 'NONE', #265 ) ;
#50 = AXIS2_PLACEMENT_3D ( 'NONE', #242, #133, #82 ) ;
#51 = APPROVAL_ROLE ( '' ) ;
#52 = DIRECTION ( 'NONE',  ( -0.7071067811865475727, -0.7071067811865475727, 0.000000000000000000 ) ) ;
#53 = LOCAL_TIME ( 10, 1, 12.00000000000000000, #241 ) ;
#54 = ORIENTED_EDGE ( 'NONE', *, *, #238, .T. ) ;
#55 = APPROVAL ( #107, 'UNSPECIFIED' ) ;
#56 = PERSON_AND_ORGANIZATION ( #70, #91 ) ;
#57 = ORIENTED_EDGE ( 'NONE', *, *, #251, .F. ) ;
#58 = APPROVAL_DATE_TIME ( #32, #285 ) ;
#59 = DIRECTION ( 'NONE',  ( 0.7071067811865475727, -0.7071067811865475727, 0.000000000000000000 ) ) ;
#60 = LOCAL_TIME ( 10, 1, 12.00000000000000000, #261 ) ;
#61 = ORIENTED_EDGE ( 'NONE', *, *, #144, .F. ) ;
#62 = ORIENTED_EDGE ( 'NONE', *, *, #16, .T. ) ;
#63 = DIRECTION ( 'NONE',  ( 1.000000000000000000, 0.000000000000000000, 0.000000000000000000 ) ) ;
#64 = ADVANCED_FACE ( 'NONE', ( #313 ), #135, .F. ) ;
#65 = ORIENTED_EDGE ( 'NONE', *, *, #105, .F. ) ;
#66 = CARTESIAN_POINT ( 'NONE',  ( -6.349999999999998757, -6.349999999999997868, 6.349999999999999645 ) ) ;
#67 = CC_DESIGN_PERSON_AND_ORGANIZATION_ASSIGNMENT ( #125, #239, ( #199 ) ) ;
#68 = VECTOR ( 'NONE', #226, 1000.000000000000000 ) ;
#69 = PLANE ( 'NONE',  #281 ) ;
#70 = PERSON ( 'UNSPECIFIED', 'UNSPECIFIED', 'UNSPECIFIED', ('UNSPECIFIED'), ('UNSPECIFIED'), ('UNSPECIFIED') ) ;
#71 = VECTOR ( 'NONE', #252, 999.9999999999998863 ) ;
#72 = DIRECTION ( 'NONE',  ( -2.220446049250312588E-16, 1.000000000000000000, 0.000000000000000000 ) ) ;
#73 = LINE ( 'NONE', #204, #315 ) ;
#74 = ORIENTED_EDGE ( 'NONE', *, *, #291, .T. ) ;
#75 = COORDINATED_UNIVERSAL_TIME_OFFSET ( 8, 0, .AHEAD. ) ;
#76 = LINE ( 'NONE', #3, #95 ) ;
#77 = VERTEX_POINT ( 'NONE', #86 ) ;
#78 = APPROVAL_PERSON_ORGANIZATION ( #286, #186, #4 ) ;
#79 = FACE_OUTER_BOUND ( 'NONE', #228, .T. ) ;
#80 = VERTEX_POINT ( 'NONE', #165 ) ;
#81 = ORIENTED_EDGE ( 'NONE', *, *, #215, .F. ) ;
#82 = DIRECTION ( 'NONE',  ( -2.220446049250312588E-16, 1.000000000000000000, 0.000000000000000000 ) ) ;
#83 = DIRECTION ( 'NONE',  ( -0.000000000000000000, -0.000000000000000000, -1.000000000000000000 ) ) ;
#84 = DATE_TIME_ROLE ( 'creation_date' ) ;
#85 = CC_DESIGN_APPROVAL ( #55, ( #173 ) ) ;
#86 = CARTESIAN_POINT ( 'NONE',  ( -6.349999999999999645, -6.350000000000000533, -6.349999999999999645 ) ) ;
#87 = FACE_OUTER_BOUND ( 'NONE', #134, .T. ) ;
#88 = LINE ( 'NONE', #196, #187 ) ;
#89 = VECTOR ( 'NONE', #269, 1000.000000000000000 ) ;
#90 = EDGE_LOOP ( 'NONE', ( #111, #14, #247 ) ) ;
#91 = ORGANIZATION ( 'UNSPECIFIED', 'UNSPECIFIED', '' ) ;
#92 = LOCAL_TIME ( 10, 1, 12.00000000000000000, #75 ) ;
#93 = VERTEX_POINT ( 'NONE', #289 ) ;
#94 = CARTESIAN_POINT ( 'NONE',  ( -6.349999999999999645, -6.350000000000000533, 6.349999999999999645 ) ) ;
#95 = VECTOR ( 'NONE', #232, 1000.000000000000114 ) ;
#96 = VECTOR ( 'NONE', #254, 1000.000000000000000 ) ;
#97 = CARTESIAN_POINT ( 'NONE',  ( 6.349999999999998757, 6.349999999999998757, 6.349999999999999645 ) ) ;
#98 = CARTESIAN_POINT ( 'NONE',  ( -6.350000000000002309, 6.350000000000001421, 6.349999999999999645 ) ) ;
#99 = CARTESIAN_POINT ( 'NONE',  ( -6.349999999999998757, -6.349999999999997868, -6.349999999999999645 ) ) ;
#100 = EDGE_LOOP ( 'NONE', ( #276, #37, #180 ) ) ;
#101 = DIRECTION ( 'NONE',  ( 0.7071067811865475727, 0.7071067811865475727, 0.000000000000000000 ) ) ;
#102 = ORIENTED_EDGE ( 'NONE', *, *, #215, .T. ) ;
#103 = DATE_AND_TIME ( #279, #53 ) ;
#104 = EDGE_CURVE ( 'NONE', #10, #35, #88, .T. ) ;
#105 = EDGE_CURVE ( 'NONE', #35, #287, #152, .T. ) ;
#106 = ADVANCED_FACE ( 'NONE', ( #227 ), #18, .T. ) ;
#107 = APPROVAL_STATUS ( 'not_yet_approved' ) ;
#108 = VECTOR ( 'NONE', #72, 1000.000000000000000 ) ;
#109 = SECURITY_CLASSIFICATION_LEVEL ( 'unclassified' ) ;
#110 =( NAMED_UNIT ( * ) PLANE_ANGLE_UNIT ( ) SI_UNIT ( $, .RADIAN. ) );
#111 = ORIENTED_EDGE ( 'NONE', *, *, #120, .F. ) ;
#112 = ORIENTED_EDGE ( 'NONE', *, *, #251, .T. ) ;
#113 = AXIS2_PLACEMENT_3D ( 'NONE', #97, #303, #149 ) ;
#114 = CARTESIAN_POINT ( 'NONE',  ( -6.349999999999999645, -6.350000000000000533, -6.349999999999999645 ) ) ;
#115 = DIRECTION ( 'NONE',  ( 1.000000000000000000, 0.000000000000000000, 0.000000000000000000 ) ) ;
#116 = DIRECTION ( 'NONE',  ( -0.000000000000000000, -0.000000000000000000, -1.000000000000000000 ) ) ;
#117 = CARTESIAN_POINT ( 'NONE',  ( 0.000000000000000000, 0.000000000000000000, 6.349999999999999645 ) ) ;
#118 = CARTESIAN_POINT ( 'NONE',  ( 6.349999999999998757, 6.349999999999998757, -6.349999999999999645 ) ) ;
#119 = ORIENTED_EDGE ( 'NONE', *, *, #200, .F. ) ;
#120 = EDGE_CURVE ( 'NONE', #236, #77, #76, .T. ) ;
#121 = DIRECTION ( 'NONE',  ( -0.000000000000000000, 0.000000000000000000, 1.000000000000000000 ) ) ;
#122 = EDGE_LOOP ( 'NONE', ( #168, #2, #216, #124 ) ) ;
#123 = CARTESIAN_POINT ( 'NONE',  ( -6.349999999999998757, -6.349999999999997868, -6.349999999999999645 ) ) ;
#124 = ORIENTED_EDGE ( 'NONE', *, *, #136, .T. ) ;
#125 = PERSON_AND_ORGANIZATION ( #70, #91 ) ;
#126 = AXIS2_PLACEMENT_3D ( 'NONE', #66, #248, #12 ) ;
#127 = VERTEX_POINT ( 'NONE', #98 ) ;
#128 = SECURITY_CLASSIFICATION ( '', '', #109 ) ;
#129 = APPROVAL_STATUS ( 'not_yet_approved' ) ;
#130 = LINE ( 'NONE', #183, #316 ) ;
#131 = PLANE ( 'NONE',  #50 ) ;
#132 = PERSON_AND_ORGANIZATION ( #70, #91 ) ;
#133 = DIRECTION ( 'NONE',  ( 0.000000000000000000, 0.000000000000000000, 1.000000000000000000 ) ) ;
#134 = EDGE_LOOP ( 'NONE', ( #57, #207, #256, #25 ) ) ;
#135 = PLANE ( 'NONE',  #298 ) ;
#136 = EDGE_CURVE ( 'NONE', #10, #77, #47, .T. ) ;
#137 = CARTESIAN_POINT ( 'NONE',  ( 0.000000000000000000, 0.000000000000000000, 6.349999999999999645 ) ) ;
#138 = VECTOR ( 'NONE', #175, 1000.000000000000000 ) ;
#139 = FACE_OUTER_BOUND ( 'NONE', #100, .T. ) ;
#140 = ADVANCED_FACE ( 'NONE', ( #229 ), #69, .F. ) ;
#141 = UNCERTAINTY_MEASURE_WITH_UNIT (LENGTH_MEASURE( 1.000000000000000082E-05 ), #234, 'distance_accuracy_value', 'NONE');
#142 = CARTESIAN_POINT ( 'NONE',  ( -6.349999999999999645, -6.350000000000000533, 6.349999999999999645 ) ) ;
#143 = CARTESIAN_POINT ( 'NONE',  ( 6.349999999999996980, 6.349999999999996980, 6.349999999999999645 ) ) ;
#144 = EDGE_CURVE ( 'NONE', #49, #264, #73, .T. ) ;
#145 = AXIS2_PLACEMENT_3D ( 'NONE', #143, #275, #101 ) ;
#146 = CARTESIAN_POINT ( 'NONE',  ( -6.350000000000002309, 6.350000000000001421, 6.349999999999999645 ) ) ;
#147 = LINE ( 'NONE', #250, #71 ) ;
#148 = CLOSED_SHELL ( 'NONE', ( #219, #30, #140, #27, #299 ) ) ;
#149 = DIRECTION ( 'NONE',  ( 6.829619984160658046E-17, -1.000000000000000000, 0.000000000000000000 ) ) ;
#150 = ORIENTED_EDGE ( 'NONE', *, *, #170, .F. ) ;
#151 = VECTOR ( 'NONE', #206, 1000.000000000000000 ) ;
#152 = LINE ( 'NONE', #205, #138 ) ;
#153 = ORIENTED_EDGE ( 'NONE', *, *, #200, .T. ) ;
#154 = APPROVAL_STATUS ( 'not_yet_approved' ) ;
#155 = APPLICATION_PROTOCOL_DEFINITION ( 'international standard', 'config_control_design', 1994, #176 ) ;
#156 = SHAPE_DEFINITION_REPRESENTATION ( #160, #295 ) ;
#157 = DIRECTION ( 'NONE',  ( 1.000000000000000000, -2.903408047666378392E-16, 0.000000000000000000 ) ) ;
#158 = EDGE_CURVE ( 'NONE', #287, #10, #171, .T. ) ;
#159 = FACE_OUTER_BOUND ( 'NONE', #23, .T. ) ;
#160 = PRODUCT_DEFINITION_SHAPE ( 'NONE', 'NONE',  #173 ) ;
#161 = DIRECTION ( 'NONE',  ( -6.829619984160658046E-17, 1.000000000000000000, -0.000000000000000000 ) ) ;
#162 = ADVANCED_FACE ( 'NONE', ( #277 ), #270, .F. ) ;
#163 = COORDINATED_UNIVERSAL_TIME_OFFSET ( 8, 0, .AHEAD. ) ;
#164 = APPROVAL_PERSON_ORGANIZATION ( #263, #55, #237 ) ;
#165 = CARTESIAN_POINT ( 'NONE',  ( 6.349999999999999645, -6.350000000000000533, -6.349999999999999645 ) ) ;
#166 = CLOSED_SHELL ( 'NONE', ( #290, #13, #162, #106, #64 ) ) ;
#167 = ORIENTED_EDGE ( 'NONE', *, *, #158, .F. ) ;
#168 = ORIENTED_EDGE ( 'NONE', *, *, #44, .T. ) ;
#169 = DIRECTION ( 'NONE',  ( 0.000000000000000000, 1.000000000000000000, 0.000000000000000000 ) ) ;
#170 = EDGE_CURVE ( 'NONE', #127, #93, #321, .T. ) ;
#171 = LINE ( 'NONE', #297, #271 ) ;
#172 = AXIS2_PLACEMENT_3D ( 'NONE', #117, #121, #301 ) ;
#173 = PRODUCT_DEFINITION ( 'UNKNOWN', '', #199, #19 ) ;
#174 = MANIFOLD_SOLID_BREP ( '¾µÏ', #148 ) ;
#175 = DIRECTION ( 'NONE',  ( -6.829619984160658046E-17, 1.000000000000000000, -0.000000000000000000 ) ) ;
#176 = APPLICATION_CONTEXT ( 'configuration controlled 3d designs of mechanical parts and assemblies' ) ;
#177 = LINE ( 'NONE', #179, #36 ) ;
#178 = MANIFOLD_SOLID_BREP ( 'Í¹Ì¨-À', #166 ) ;
#179 = CARTESIAN_POINT ( 'NONE',  ( 6.349999999999996980, 6.349999999999996980, -6.349999999999999645 ) ) ;
#180 = ORIENTED_EDGE ( 'NONE', *, *, #203, .F. ) ;
#181 = COORDINATED_UNIVERSAL_TIME_OFFSET ( 8, 0, .AHEAD. ) ;
#182 = ORIENTED_EDGE ( 'NONE', *, *, #238, .F. ) ;
#183 = CARTESIAN_POINT ( 'NONE',  ( 6.349999999999999645, -6.350000000000000533, 6.349999999999999645 ) ) ;
#184 = CARTESIAN_POINT ( 'NONE',  ( 6.349999999999998757, 6.349999999999998757, -6.349999999999999645 ) ) ;
#185 = ORIENTED_EDGE ( 'NONE', *, *, #296, .T. ) ;
#186 = APPROVAL ( #154, 'UNSPECIFIED' ) ;
#187 = VECTOR ( 'NONE', #63, 1000.000000000000000 ) ;
#188 = LINE ( 'NONE', #184, #224 ) ;
#189 = CARTESIAN_POINT ( 'NONE',  ( 0.000000000000000000, 0.000000000000000000, 0.000000000000000000 ) ) ;
#190 =( NAMED_UNIT ( * ) SI_UNIT ( $, .STERADIAN. ) SOLID_ANGLE_UNIT ( ) );
#191 = AXIS2_PLACEMENT_3D ( 'NONE', #137, #11, #249 ) ;
#192 = CALENDAR_DATE ( 2021, 5, 1 ) ;
#193 = ORIENTED_EDGE ( 'NONE', *, *, #120, .T. ) ;
#194 = APPROVAL_PERSON_ORGANIZATION ( #132, #285, #51 ) ;
#195 = EDGE_LOOP ( 'NONE', ( #81, #150, #185, #153 ) ) ;
#196 = CARTESIAN_POINT ( 'NONE',  ( -6.349999999999999645, -6.350000000000000533, 6.349999999999999645 ) ) ;
#197 =( GEOMETRIC_REPRESENTATION_CONTEXT ( 3 ) GLOBAL_UNCERTAINTY_ASSIGNED_CONTEXT ( ( #141 ) ) GLOBAL_UNIT_ASSIGNED_CONTEXT ( ( #234, #110, #190 ) ) REPRESENTATION_CONTEXT ( 'NONE', 'WORKASPACE' ) );
#198 = FACE_OUTER_BOUND ( 'NONE', #122, .T. ) ;
#199 = PRODUCT_DEFINITION_FORMATION_WITH_SPECIFIED_SOURCE ( 'ANY', '', #268, .NOT_KNOWN. ) ;
#200 = EDGE_CURVE ( 'NONE', #266, #49, #20, .T. ) ;
#201 = EDGE_LOOP ( 'NONE', ( #9, #182, #65, #74 ) ) ;
#202 = CARTESIAN_POINT ( 'NONE',  ( 6.349999999999998757, 6.349999999999998757, 6.349999999999999645 ) ) ;
#203 = EDGE_CURVE ( 'NONE', #307, #127, #300, .T. ) ;
#204 = CARTESIAN_POINT ( 'NONE',  ( 6.349999999999996980, 6.349999999999996980, -6.349999999999999645 ) ) ;
#205 = CARTESIAN_POINT ( 'NONE',  ( 6.349999999999998757, 6.349999999999998757, 6.349999999999999645 ) ) ;
#206 = DIRECTION ( 'NONE',  ( -2.220446049250312588E-16, 1.000000000000000000, 0.000000000000000000 ) ) ;
#207 = ORIENTED_EDGE ( 'NONE', *, *, #16, .F. ) ;
#208 = DIRECTION ( 'NONE',  ( -0.7071067811865474617, -0.7071067811865474617, 0.000000000000000000 ) ) ;
#209 = EDGE_CURVE ( 'NONE', #266, #307, #147, .T. ) ;
#210 = DIRECTION ( 'NONE',  ( 0.7071067811865474617, 0.7071067811865474617, 0.000000000000000000 ) ) ;
#211 = DATE_AND_TIME ( #213, #92 ) ;
#212 = DIRECTION ( 'NONE',  ( 0.000000000000000000, 0.000000000000000000, 1.000000000000000000 ) ) ;
#213 = CALENDAR_DATE ( 2021, 5, 1 ) ;
#214 = DATE_AND_TIME ( #283, #60 ) ;
#215 = EDGE_CURVE ( 'NONE', #93, #49, #177, .T. ) ;
#216 = ORIENTED_EDGE ( 'NONE', *, *, #104, .F. ) ;
#217 = CARTESIAN_POINT ( 'NONE',  ( 6.349999999999999645, -6.350000000000000533, 6.349999999999999645 ) ) ;
#218 = PLANE ( 'NONE',  #191 ) ;
#219 = ADVANCED_FACE ( 'NONE', ( #24 ), #317, .F. ) ;
#220 = DIRECTION ( 'NONE',  ( -0.000000000000000000, 0.000000000000000000, 1.000000000000000000 ) ) ;
#221 = CC_DESIGN_PERSON_AND_ORGANIZATION_ASSIGNMENT ( #28, #302, ( #128 ) ) ;
#222 = APPLICATION_CONTEXT ( 'configuration controlled 3d designs of mechanical parts and assemblies' ) ;
#223 = LINE ( 'NONE', #114, #245 ) ;
#224 = VECTOR ( 'NONE', #161, 1000.000000000000000 ) ;
#225 = CARTESIAN_POINT ( 'NONE',  ( 6.349999999999996980, 6.349999999999996980, 6.349999999999999645 ) ) ;
#226 = DIRECTION ( 'NONE',  ( -0.000000000000000000, -0.000000000000000000, -1.000000000000000000 ) ) ;
#227 = FACE_OUTER_BOUND ( 'NONE', #42, .T. ) ;
#228 = EDGE_LOOP ( 'NONE', ( #193, #259, #167, #54 ) ) ;
#229 = FACE_OUTER_BOUND ( 'NONE', #195, .T. ) ;
#230 = PRODUCT_RELATED_PRODUCT_CATEGORY ( 'detail', '', ( #268 ) ) ;
#231 = CALENDAR_DATE ( 2021, 5, 1 ) ;
#232 = DIRECTION ( 'NONE',  ( -0.7071067811865474617, -0.7071067811865474617, 0.000000000000000000 ) ) ;
#233 = ORIENTED_EDGE ( 'NONE', *, *, #105, .T. ) ;
#234 =( LENGTH_UNIT ( ) NAMED_UNIT ( * ) SI_UNIT ( .MILLI., .METRE. ) );
#235 = CC_DESIGN_SECURITY_CLASSIFICATION ( #128, ( #199 ) ) ;
#236 = VERTEX_POINT ( 'NONE', #118 ) ;
#237 = APPROVAL_ROLE ( '' ) ;
#238 = EDGE_CURVE ( 'NONE', #287, #236, #48, .T. ) ;
#239 = PERSON_AND_ORGANIZATION_ROLE ( 'design_supplier' ) ;
#240 = CARTESIAN_POINT ( 'NONE',  ( -6.349999999999998757, -6.349999999999997868, 6.349999999999999645 ) ) ;
#241 = COORDINATED_UNIVERSAL_TIME_OFFSET ( 8, 0, .AHEAD. ) ;
#242 = CARTESIAN_POINT ( 'NONE',  ( 0.000000000000000000, 0.000000000000000000, -6.349999999999999645 ) ) ;
#243 = ORIENTED_EDGE ( 'NONE', *, *, #158, .T. ) ;
#244 = CARTESIAN_POINT ( 'NONE',  ( 0.000000000000000000, 0.000000000000000000, -6.349999999999999645 ) ) ;
#245 = VECTOR ( 'NONE', #15, 1000.000000000000000 ) ;
#246 = CC_DESIGN_DATE_AND_TIME_ASSIGNMENT ( #311, #84, ( #173 ) ) ;
#247 = ORIENTED_EDGE ( 'NONE', *, *, #44, .F. ) ;
#248 = DIRECTION ( 'NONE',  ( 1.000000000000000000, -2.220446049250312588E-16, 0.000000000000000000 ) ) ;
#249 = DIRECTION ( 'NONE',  ( -2.220446049250312588E-16, 1.000000000000000000, 0.000000000000000000 ) ) ;
#250 = CARTESIAN_POINT ( 'NONE',  ( 6.349999999999996980, 6.349999999999996980, 6.349999999999999645 ) ) ;
#251 = EDGE_CURVE ( 'NONE', #264, #93, #1, .T. ) ;
#252 = DIRECTION ( 'NONE',  ( -0.7071067811865475727, -0.7071067811865475727, 0.000000000000000000 ) ) ;
#253 = CARTESIAN_POINT ( 'NONE',  ( -6.349999999999998757, -6.349999999999997868, 6.349999999999999645 ) ) ;
#254 = DIRECTION ( 'NONE',  ( 0.000000000000000000, 0.000000000000000000, -1.000000000000000000 ) ) ;
#255 = DIRECTION ( 'NONE',  ( 1.000000000000000000, -2.903408047666378392E-16, 0.000000000000000000 ) ) ;
#256 = ORIENTED_EDGE ( 'NONE', *, *, #203, .T. ) ;
#257 = PERSON_AND_ORGANIZATION ( #70, #91 ) ;
#258 = CARTESIAN_POINT ( 'NONE',  ( 6.349999999999998757, 6.349999999999998757, 6.349999999999999645 ) ) ;
#259 = ORIENTED_EDGE ( 'NONE', *, *, #136, .F. ) ;
#260 = APPROVAL_DATE_TIME ( #103, #186 ) ;
#261 = COORDINATED_UNIVERSAL_TIME_OFFSET ( 8, 0, .AHEAD. ) ;
#262 = PLANE ( 'NONE',  #8 ) ;
#263 = PERSON_AND_ORGANIZATION ( #70, #91 ) ;
#264 = VERTEX_POINT ( 'NONE', #123 ) ;
#265 = CARTESIAN_POINT ( 'NONE',  ( 6.349999999999996980, 6.349999999999996980, -6.349999999999999645 ) ) ;
#266 = VERTEX_POINT ( 'NONE', #305 ) ;
#267 = CARTESIAN_POINT ( 'NONE',  ( -6.349999999999999645, -6.350000000000000533, 6.349999999999999645 ) ) ;
#268 = PRODUCT ( 'BK7-LNPBSC-12.7-670', 'BK7-LNPBSC-12.7-670', '', ( #282 ) ) ;
#269 = DIRECTION ( 'NONE',  ( 0.000000000000000000, 0.000000000000000000, -1.000000000000000000 ) ) ;
#270 = PLANE ( 'NONE',  #113 ) ;
#271 = VECTOR ( 'NONE', #208, 1000.000000000000114 ) ;
#272 = CC_DESIGN_APPROVAL ( #285, ( #128 ) ) ;
#273 = DIRECTION ( 'NONE',  ( -2.903408047666378392E-16, -1.000000000000000000, 0.000000000000000000 ) ) ;
#274 = DIRECTION ( 'NONE',  ( 0.000000000000000000, 0.000000000000000000, -1.000000000000000000 ) ) ;
#275 = DIRECTION ( 'NONE',  ( -0.7071067811865475727, 0.7071067811865475727, 0.000000000000000000 ) ) ;
#276 = ORIENTED_EDGE ( 'NONE', *, *, #209, .F. ) ;
#277 = FACE_OUTER_BOUND ( 'NONE', #201, .T. ) ;
#278 = ORIENTED_EDGE ( 'NONE', *, *, #104, .T. ) ;
#279 = CALENDAR_DATE ( 2021, 5, 1 ) ;
#280 = DIRECTION ( 'NONE',  ( 1.000000000000000000, 0.000000000000000000, 0.000000000000000000 ) ) ;
#281 = AXIS2_PLACEMENT_3D ( 'NONE', #319, #273, #46 ) ;
#282 = MECHANICAL_CONTEXT ( 'NONE', #176, 'mechanical' ) ;
#283 = CALENDAR_DATE ( 2021, 5, 1 ) ;
#284 = PERSON_AND_ORGANIZATION ( #70, #91 ) ;
#285 = APPROVAL ( #129, 'UNSPECIFIED' ) ;
#286 = PERSON_AND_ORGANIZATION ( #70, #91 ) ;
#287 = VERTEX_POINT ( 'NONE', #202 ) ;
#288 = CC_DESIGN_APPROVAL ( #186, ( #199 ) ) ;
#289 = CARTESIAN_POINT ( 'NONE',  ( -6.350000000000002309, 6.350000000000001421, -6.349999999999999645 ) ) ;
#290 = ADVANCED_FACE ( 'NONE', ( #79 ), #262, .F. ) ;
#291 = EDGE_CURVE ( 'NONE', #35, #80, #130, .T. ) ;
#292 = VECTOR ( 'NONE', #116, 1000.000000000000000 ) ;
#293 = PLANE ( 'NONE',  #43 ) ;
#294 = ORIENTED_EDGE ( 'NONE', *, *, #209, .T. ) ;
#295 = ADVANCED_BREP_SHAPE_REPRESENTATION ( 'BK7-LNPBSC-12.7-670', ( #178, #174, #34 ), #197 ) ;
#296 = EDGE_CURVE ( 'NONE', #127, #266, #6, .T. ) ;
#297 = CARTESIAN_POINT ( 'NONE',  ( 6.349999999999998757, 6.349999999999998757, 6.349999999999999645 ) ) ;
#298 = AXIS2_PLACEMENT_3D ( 'NONE', #244, #220, #115 ) ;
#299 = ADVANCED_FACE ( 'NONE', ( #159 ), #131, .F. ) ;
#300 = LINE ( 'NONE', #253, #108 ) ;
#301 = DIRECTION ( 'NONE',  ( 1.000000000000000000, 0.000000000000000000, 0.000000000000000000 ) ) ;
#302 = PERSON_AND_ORGANIZATION_ROLE ( 'classification_officer' ) ;
#303 = DIRECTION ( 'NONE',  ( -1.000000000000000000, -6.829619984160658046E-17, 0.000000000000000000 ) ) ;
#304 = EDGE_CURVE ( 'NONE', #80, #236, #188, .T. ) ;
#305 = CARTESIAN_POINT ( 'NONE',  ( 6.349999999999996980, 6.349999999999996980, 6.349999999999999645 ) ) ;
#306 = LOCAL_TIME ( 10, 1, 12.00000000000000000, #163 ) ;
#307 = VERTEX_POINT ( 'NONE', #240 ) ;
#308 = DATE_TIME_ROLE ( 'classification_date' ) ;
#309 = APPLICATION_PROTOCOL_DEFINITION ( 'international standard', 'config_control_design', 1994, #222 ) ;
#310 = APPROVAL_DATE_TIME ( #214, #55 ) ;
#311 = DATE_AND_TIME ( #192, #306 ) ;
#312 = ORIENTED_EDGE ( 'NONE', *, *, #144, .T. ) ;
#313 = FACE_OUTER_BOUND ( 'NONE', #90, .T. ) ;
#314 = PLANE ( 'NONE',  #126 ) ;
#315 = VECTOR ( 'NONE', #52, 999.9999999999998863 ) ;
#316 = VECTOR ( 'NONE', #83, 1000.000000000000000 ) ;
#317 = PLANE ( 'NONE',  #145 ) ;
#318 = CC_DESIGN_PERSON_AND_ORGANIZATION_ASSIGNMENT ( #284, #33, ( #173 ) ) ;
#319 = CARTESIAN_POINT ( 'NONE',  ( 6.349999999999996980, 6.349999999999996980, 6.349999999999999645 ) ) ;
#320 = VECTOR ( 'NONE', #274, 1000.000000000000000 ) ;
#321 = LINE ( 'NONE', #146, #96 ) ;
ENDSEC;
END-ISO-10303-21;
